  0
SECTION
  2
HEADER
  9
$ACADVER
  1
AC1015
  9
$ACADMAINTVER
 70
     6
  9
$DWGCODEPAGE
  3
ANSI_1254
  9
$INSBASE
 10
0.0
 20
0.0
 30
0.0
  9
$EXTMIN
 10
0.0
 20
0.0
 30
0.0
  9
$EXTMAX
 10
279.4
 20
215.9
 30
0.0
  9
$LIMMIN
 10
0.0
 20
0.0
  9
$LIMMAX
 10
279.4
 20
215.9
  9
$ORTHOMODE
 70
     0
  9
$REGENMODE
 70
     1
  9
$FILLMODE
 70
     1
  9
$QTEXTMODE
 70
     0
  9
$MIRRTEXT
 70
     1
  9
$LTSCALE
 40
1.0
  9
$ATTMODE
 70
     1
  9
$TEXTSIZE
 40
3.5
  9
$TRACEWID
 40
1.0
  9
$TEXTSTYLE
  7
Standard
  9
$CLAYER
  8
0
  9
$CELTYPE
  6
ByLayer
  9
$CECOLOR
 62
   256
  9
$CELTSCALE
 40
1.0
  9
$DISPSILH
 70
     0
  9
$DIMSCALE
 40
1.0
  9
$DIMASZ
 40
3.5
  9
$DIMEXO
 40
1.0
  9
$DIMDLI
 40
3.75
  9
$DIMRND
 40
0.0
  9
$DIMDLE
 40
0.0
  9
$DIMEXE
 40
1.0
  9
$DIMTP
 40
0.0
  9
$DIMTM
 40
0.0
  9
$DIMTXT
 40
3.5
  9
$DIMCEN
 40
2.5
  9
$DIMTSZ
 40
0.0
  9
$DIMTOL
 70
     0
  9
$DIMLIM
 70
     0
  9
$DIMTIH
 70
     1
  9
$DIMTOH
 70
     1
  9
$DIMSE1
 70
     0
  9
$DIMSE2
 70
     0
  9
$DIMTAD
 70
     1
  9
$DIMZIN
 70
     0
  9
$DIMBLK
  1

  9
$DIMASO
 70
     1
  9
$DIMSHO
 70
     1
  9
$DIMPOST
  1

  9
$DIMAPOST
  1

  9
$DIMALT
 70
     0
  9
$DIMALTD
 70
     3
  9
$DIMALTF
 40
0.0393700787
  9
$DIMLFAC
 40
1.0
  9
$DIMTOFL
 70
     1
  9
$DIMTVP
 40
0.0
  9
$DIMTIX
 70
     0
  9
$DIMSOXD
 70
     0
  9
$DIMSAH
 70
     0
  9
$DIMBLK1
  1

  9
$DIMBLK2
  1

  9
$DIMSTYLE
  2
ISO-25
  9
$DIMCLRD
 70
     0
  9
$DIMCLRE
 70
     0
  9
$DIMCLRT
 70
     0
  9
$DIMTFAC
 40
1.0
  9
$DIMGAP
 40
1.524
  9
$DIMJUST
 70
     0
  9
$DIMSD1
 70
     0
  9
$DIMSD2
 70
     0
  9
$DIMTOLJ
 70
     0
  9
$DIMTZIN
 70
     0
  9
$DIMALTZ
 70
     0
  9
$DIMALTTZ
 70
     0
  9
$DIMUPT
 70
     0
  9
$DIMDEC
 70
     2
  9
$DIMTDEC
 70
     2
  9
$DIMALTU
 70
     2
  9
$DIMALTTD
 70
     3
  9
$DIMTXSTY
  7
Standard
  9
$DIMAUNIT
 70
     0
  9
$DIMADEC
 70
     2
  9
$DIMALTRND
 40
0.0
  9
$DIMAZIN
 70
     0
  9
$DIMDSEP
 70
    44
  9
$DIMATFIT
 70
     3
  9
$DIMFRAC
 70
     0
  9
$DIMLDRBLK
  1

  9
$DIMLUNIT
 70
     2
  9
$DIMLWD
 70
    -2
  9
$DIMLWE
 70
    -2
  9
$DIMTMOVE
 70
     0
  9
$LUNITS
 70
     2
  9
$LUPREC
 70
     2
  9
$SKETCHINC
 40
1.0
  9
$FILLETRAD
 40
10.0
  9
$AUNITS
 70
     0
  9
$AUPREC
 70
     2
  9
$MENU
  1
.
  9
$ELEVATION
 40
0.0
  9
$PELEVATION
 40
0.0
  9
$THICKNESS
 40
0.0
  9
$LIMCHECK
 70
     0
  9
$CHAMFERA
 40
0.0
  9
$CHAMFERB
 40
0.0
  9
$CHAMFERC
 40
0.0
  9
$CHAMFERD
 40
0.0
  9
$SKPOLY
 70
     0
  9
$TDCREATE
 40
2458985.705308773
  9
$TDUCREATE
 40
2458985.580308773
  9
$TDUPDATE
 40
2458985.705309317
  9
$TDUUPDATE
 40
2458985.580309317
  9
$TDINDWG
 40
0.0000000116
  9
$TDUSRTIMER
 40
0.0000000116
  9
$USRTIMER
 70
     1
  9
$ANGBASE
 50
0.0
  9
$ANGDIR
 70
     0
  9
$PDMODE
 70
     0
  9
$PDSIZE
 40
-1.0
  9
$PLINEWID
 40
0.0
  9
$SPLFRAME
 70
     0
  9
$SPLINETYPE
 70
     6
  9
$SPLINESEGS
 70
     8
  9
$HANDSEED
  5
EC
  9
$SURFTAB1
 70
     6
  9
$SURFTAB2
 70
     6
  9
$SURFTYPE
 70
     6
  9
$SURFU
 70
     6
  9
$SURFV
 70
     6
  9
$UCSBASE
  2

  9
$UCSNAME
  2

  9
$UCSORG
 10
0.0
 20
0.0
 30
0.0
  9
$UCSXDIR
 10
1.0
 20
0.0
 30
0.0
  9
$UCSYDIR
 10
0.0
 20
1.0
 30
0.0
  9
$UCSORTHOREF
  2

  9
$UCSORTHOVIEW
 70
     0
  9
$UCSORGTOP
 10
0.0
 20
0.0
 30
0.0
  9
$UCSORGBOTTOM
 10
0.0
 20
0.0
 30
0.0
  9
$UCSORGLEFT
 10
0.0
 20
0.0
 30
0.0
  9
$UCSORGRIGHT
 10
0.0
 20
0.0
 30
0.0
  9
$UCSORGFRONT
 10
0.0
 20
0.0
 30
0.0
  9
$UCSORGBACK
 10
0.0
 20
0.0
 30
0.0
  9
$PUCSBASE
  2

  9
$PUCSNAME
  2

  9
$PUCSORG
 10
0.0
 20
0.0
 30
0.0
  9
$PUCSXDIR
 10
1.0
 20
0.0
 30
0.0
  9
$PUCSYDIR
 10
0.0
 20
1.0
 30
0.0
  9
$PUCSORTHOREF
  2

  9
$PUCSORTHOVIEW
 70
     0
  9
$PUCSORGTOP
 10
0.0
 20
0.0
 30
0.0
  9
$PUCSORGBOTTOM
 10
0.0
 20
0.0
 30
0.0
  9
$PUCSORGLEFT
 10
0.0
 20
0.0
 30
0.0
  9
$PUCSORGRIGHT
 10
0.0
 20
0.0
 30
0.0
  9
$PUCSORGFRONT
 10
0.0
 20
0.0
 30
0.0
  9
$PUCSORGBACK
 10
0.0
 20
0.0
 30
0.0
  9
$USERI1
 70
     0
  9
$USERI2
 70
     0
  9
$USERI3
 70
     0
  9
$USERI4
 70
     0
  9
$USERI5
 70
     0
  9
$USERR1
 40
0.0
  9
$USERR2
 40
0.0
  9
$USERR3
 40
0.0
  9
$USERR4
 40
0.0
  9
$USERR5
 40
0.0
  9
$WORLDVIEW
 70
     1
  9
$SHADEDGE
 70
     3
  9
$SHADEDIF
 70
    70
  9
$TILEMODE
 70
     1
  9
$MAXACTVP
 70
    64
  9
$PINSBASE
 10
0.0
 20
0.0
 30
0.0
  9
$PLIMCHECK
 70
     0
  9
$PEXTMIN
 10
1.0000000000E+20
 20
1.0000000000E+20
 30
1.0000000000E+20
  9
$PEXTMAX
 10
-1.0000000000E+20
 20
-1.0000000000E+20
 30
-1.0000000000E+20
  9
$PLIMMIN
 10
0.0
 20
0.0
  9
$PLIMMAX
 10
420.0
 20
297.0
  9
$UNITMODE
 70
     0
  9
$VISRETAIN
 70
     1
  9
$PLINEGEN
 70
     0
  9
$PSLTSCALE
 70
     1
  9
$TREEDEPTH
 70
  3020
  9
$CMLSTYLE
  2
Standard
  9
$CMLJUST
 70
     0
  9
$CMLSCALE
 40
20.0
  9
$PROXYGRAPHICS
 70
     1
  9
$MEASUREMENT
 70
     1
  9
$CELWEIGHT
370
    -1
  9
$ENDCAPS
280
     0
  9
$JOINSTYLE
280
     0
  9
$LWDISPLAY
290
     1
  9
$INSUNITS
 70
     4
  9
$HYPERLINKBASE
  1

  9
$STYLESHEET
  1

  9
$XEDIT
290
     1
  9
$CEPSNTYPE
380
     0
  9
$PSTYLEMODE
290
     1
  9
$FINGERPRINTGUID
  2
{93a2d717-418b-4beb-aab3-0b08c0e8565a}
  9
$VERSIONGUID
  2
{FAEB1C32-E019-11D5-929B-00C0DF256EC4}
  9
$EXTNAMES
290
     1
  9
$PSVPSCALE
 40
0.0
  9
$OLESTARTUP
290
     0
  0
ENDSEC
  0
SECTION
  2
CLASSES
  0
CLASS
  1
ACDBDICTIONARYWDFLT
  2
AcDbDictionaryWithDefault
  3
ObjectDBX Classes
 90
        0
280
     0
281
     0
  0
CLASS
  1
VISUALSTYLE
  2
AcDbVisualStyle
  3
ObjectDBX Classes
 90
     4095
280
     0
281
     0
  0
CLASS
  1
MATERIAL
  2
AcDbMaterial
  3
ObjectDBX Classes
 90
     1153
280
     0
281
     0
  0
CLASS
  1
SCALE
  2
AcDbScale
  3
ObjectDBX Classes
 90
     1153
280
     0
281
     0
  0
CLASS
  1
TABLESTYLE
  2
AcDbTableStyle
  3
ObjectDBX Classes
 90
     4095
280
     0
281
     0
  0
CLASS
  1
MLEADERSTYLE
  2
AcDbMLeaderStyle
  3
ACDB_MLEADERSTYLE_CLASS
 90
     4095
280
     0
281
     0
  0
CLASS
  1
SUN
  2
AcDbSun
  3
SCENEOE
 90
     1153
280
     0
281
     0
  0
CLASS
  1
ACDBPLACEHOLDER
  2
AcDbPlaceHolder
  3
ObjectDBX Classes
 90
        0
280
     0
281
     0
  0
CLASS
  1
LAYOUT
  2
AcDbLayout
  3
ObjectDBX Classes
 90
        0
280
     0
281
     0
  0
ENDSEC
  0
SECTION
  2
TABLES
  0
TABLE
  2
VPORT
  5
8
330
0
100
AcDbSymbolTable
 70
     1
  0
VPORT
  5
29
330
8
100
AcDbSymbolTableRecord
100
AcDbViewportTableRecord
  2
*Active
 70
     0
 10
0.0
 20
0.0
 11
1.0
 21
1.0
 12
139.7
 22
107.95
 13
0.0
 23
0.0
 14
10.0
 24
10.0
 15
10.0
 25
10.0
 16
0.0
 26
0.0
 36
1.0
 17
0.0
 27
0.0
 37
0.0
 40
215.9
 41
1.2941176471
 42
50.0
 43
0.0
 44
0.0
 50
0.0
 51
0.0
 71
     0
 72
  2000
 73
     1
 74
     3
 75
     0
 76
     0
 77
     0
 78
     0
281
     0
 65
     1
110
0.0
120
0.0
130
0.0
111
1.0
121
0.0
131
0.0
112
0.0
122
1.0
132
0.0
 79
     0
146
0.0
  0
ENDTAB
  0
TABLE
  2
LTYPE
  5
5
330
0
100
AcDbSymbolTable
 70
     6
  0
LTYPE
  5
14
330
5
100
AcDbSymbolTableRecord
100
AcDbLinetypeTableRecord
  2
ByBlock
 70
     0
  3

 72
    65
 73
     0
 40
0.0
  0
LTYPE
  5
15
330
5
100
AcDbSymbolTableRecord
100
AcDbLinetypeTableRecord
  2
ByLayer
 70
     0
  3

 72
    65
 73
     0
 40
0.0
  0
LTYPE
  5
16
330
5
100
AcDbSymbolTableRecord
100
AcDbLinetypeTableRecord
  2
Continuous
 70
     0
  3
Solid line
 72
    65
 73
     0
 40
0.0
  0
LTYPE
  5
6E
330
5
100
AcDbSymbolTableRecord
100
AcDbLinetypeTableRecord
  2
HIDDEN
 70
     0
  3
Hidden __ __ __ __ __ __ __ __ __ __ __ __ __ __
 72
    65
 73
     2
 40
1.905
 49
1.27
 74
     0
 49
-0.635
 74
     0
  0
LTYPE
  5
6F
330
5
100
AcDbSymbolTableRecord
100
AcDbLinetypeTableRecord
  2
PHANTOM
 70
     0
  3
Phantom ______  __  __  ______  __  __  ______
 72
    65
 73
     6
 40
12.7
 49
6.35
 74
     0
 49
-1.27
 74
     0
 49
1.27
 74
     0
 49
-1.27
 74
     0
 49
1.27
 74
     0
 49
-1.27
 74
     0
  0
LTYPE
  5
70
330
5
100
AcDbSymbolTableRecord
100
AcDbLinetypeTableRecord
  2
CENTER
 70
     0
  3
Center ____ _ ____ _ ____ _ ____ _ ____ _ ____
 72
    65
 73
     4
 40
10.16
 49
6.35
 74
     0
 49
-1.27
 74
     0
 49
1.27
 74
     0
 49
-1.27
 74
     0
  0
LTYPE
  5
71
330
5
100
AcDbSymbolTableRecord
100
AcDbLinetypeTableRecord
  2
CENTERX2
 70
     0
  3
Center (2x) ________  __  ________  __  _____
 72
    65
 73
     4
 40
20.32
 49
12.7
 74
     0
 49
-2.54
 74
     0
 49
2.54
 74
     0
 49
-2.54
 74
     0
  0
LTYPE
  5
72
330
5
100
AcDbSymbolTableRecord
100
AcDbLinetypeTableRecord
  2
DOT2
 70
     0
  3
Dot (.5x) ........................................
 72
    65
 73
     2
 40
0.635
 49
0.0
 74
     0
 49
-0.635
 74
     0
  0
ENDTAB
  0
TABLE
  2
LAYER
  5
2
330
0
100
AcDbSymbolTable
 70
    17
  0
LAYER
  5
10
330
2
100
AcDbSymbolTableRecord
100
AcDbLayerTableRecord
  2
0
 70
     0
 62
     7
  6
Continuous
370
    -3
390
F
  0
LAYER
  5
73
330
2
100
AcDbSymbolTableRecord
100
AcDbLayerTableRecord
  2
FORMAT
 70
     0
 62
     7
  6
Continuous
370
    -3
390
F
  0
LAYER
  5
74
330
2
100
AcDbSymbolTableRecord
100
AcDbLayerTableRecord
  2
YARDIMCI_GEOMETRI
 70
     0
 62
    -6
  6
Continuous
290
     0
370
    -3
390
F
  0
LAYER
  5
75
330
2
100
AcDbSymbolTableRecord
100
AcDbLayerTableRecord
  2
SAYFA_CERCEVESI
 70
     0
 62
     7
  6
Continuous
370
    25
390
F
  0
LAYER
  5
76
330
2
100
AcDbSymbolTableRecord
100
AcDbLayerTableRecord
  2
ANTET
 70
     0
 62
     7
  6
Continuous
370
    -3
390
F
  0
LAYER
  5
77
330
2
100
AcDbSymbolTableRecord
100
AcDbLayerTableRecord
  2
OLCU
 70
     0
 62
   150
  6
Continuous
370
    -3
390
F
  0
LAYER
  5
78
330
2
100
AcDbSymbolTableRecord
100
AcDbLayerTableRecord
  2
METIN
 70
     0
 62
    96
  6
Continuous
370
    -3
390
F
  0
LAYER
  5
79
330
2
100
AcDbSymbolTableRecord
100
AcDbLayerTableRecord
  2
BALON
 70
     0
 62
     5
  6
Continuous
370
    -3
390
F
  0
LAYER
  5
7A
330
2
100
AcDbSymbolTableRecord
100
AcDbLayerTableRecord
  2
VURGU
 70
     0
 62
     7
  6
Continuous
370
    -3
390
F
  0
LAYER
  5
7B
330
2
100
AcDbSymbolTableRecord
100
AcDbLayerTableRecord
  2
SILIK
 70
     0
 62
     7
  6
Continuous
370
    -3
390
F
  0
LAYER
  5
7C
330
2
100
AcDbSymbolTableRecord
100
AcDbLayerTableRecord
  2
MODEL
 70
     0
 62
     7
  6
Continuous
370
    -3
390
F
  0
LAYER
  5
7D
330
2
100
AcDbSymbolTableRecord
100
AcDbLayerTableRecord
  2
DETAYLANDıRMA
 70
     0
 62
   190
  6
Continuous
370
    -3
390
F
  0
LAYER
  5
7E
330
2
100
AcDbSymbolTableRecord
100
AcDbLayerTableRecord
  2
TOLERANS
 70
     0
 62
   230
  6
Continuous
370
    -3
390
F
  0
LAYER
  5
7F
330
2
100
AcDbSymbolTableRecord
100
AcDbLayerTableRecord
  2
MERKEZ_CIZGILERI
 70
     0
 62
    30
  6
Continuous
370
    -3
390
F
  0
LAYER
  5
80
330
2
100
AcDbSymbolTableRecord
100
AcDbLayerTableRecord
  2
KESIT-DETAY_CIZGILERI
 70
     0
 62
     7
  6
Continuous
370
    -3
390
F
  0
LAYER
  5
81
330
2
100
AcDbSymbolTableRecord
100
AcDbLayerTableRecord
  2
\U+041E\U+0421\U+0415\U+0412\U+042B\U+0415
 70
     0
 62
     7
  6
Continuous
370
    -3
390
F
  0
LAYER
  5
82
330
2
100
AcDbSymbolTableRecord
100
AcDbLayerTableRecord
  2
\U+0412\U+041E\U+0414\U+042F\U+041D\U+042B\U+0415_\U+0417\U+041D\U+0410\U+041A\U+0418
 70
     0
 62
    11
  6
Continuous
370
    -3
390
F
  0
ENDTAB
  0
TABLE
  2
STYLE
  5
3
330
0
100
AcDbSymbolTable
 70
     1
  0
STYLE
  5
11
330
3
100
AcDbSymbolTableRecord
100
AcDbTextStyleTableRecord
  2
Standard
 70
     0
 40
0.0
 41
1.0
 50
0.0
 71
     0
 42
3.5
  3
txt
  4

  0
ENDTAB
  0
TABLE
  2
VIEW
  5
6
330
0
100
AcDbSymbolTable
 70
     0
  0
ENDTAB
  0
TABLE
  2
UCS
  5
7
330
0
100
AcDbSymbolTable
 70
     0
  0
ENDTAB
  0
TABLE
  2
APPID
  5
9
330
0
100
AcDbSymbolTable
 70
     1
  0
APPID
  5
12
330
9
100
AcDbSymbolTableRecord
100
AcDbRegAppTableRecord
  2
ACAD
 70
     0
  0
ENDTAB
  0
TABLE
  2
DIMSTYLE
  5
A
330
0
100
AcDbSymbolTable
 70
     1
100
AcDbDimStyleTable
  0
DIMSTYLE
105
27
330
A
100
AcDbSymbolTableRecord
100
AcDbDimStyleTableRecord
  2
ISO-25
 70
     0
 41
2.5
 42
0.625
 43
3.75
 44
1.25
 73
     0
 74
     0
 77
     1
 78
     8
140
2.5
141
2.5
143
0.0393700787
147
0.625
171
     3
172
     1
178
     0
271
     2
272
     2
274
     3
278
    44
283
     0
284
     8
340
11
  0
ENDTAB
  0
TABLE
  2
BLOCK_RECORD
  5
1
330
0
100
AcDbSymbolTable
 70
     2
  0
BLOCK_RECORD
  5
1F
330
1
100
AcDbSymbolTableRecord
100
AcDbBlockTableRecord
  2
*Model_Space
340
22
  0
BLOCK_RECORD
  5
1B
330
1
100
AcDbSymbolTableRecord
100
AcDbBlockTableRecord
  2
*Paper_Space
340
1E
  0
BLOCK_RECORD
  5
23
330
1
100
AcDbSymbolTableRecord
100
AcDbBlockTableRecord
  2
*Paper_Space0
340
26
  0
BLOCK_RECORD
  5
88
330
1
100
AcDbSymbolTableRecord
100
AcDbBlockTableRecord
  2
SW_CENTERMARKSYMBOL_0
340
0
102
{BLKREFS
331
93
102
}
  0
ENDTAB
  0
ENDSEC
  0
SECTION
  2
BLOCKS
  0
BLOCK
  5
20
330
1F
100
AcDbEntity
  8
0
100
AcDbBlockBegin
  2
*Model_Space
 70
     0
 10
0.0
 20
0.0
 30
0.0
  3
*Model_Space
  1

  0
ENDBLK
  5
21
330
1F
100
AcDbEntity
  8
0
100
AcDbBlockEnd
  0
BLOCK
  5
1C
330
1B
100
AcDbEntity
 67
     1
  8
0
100
AcDbBlockBegin
  2
*Paper_Space
 70
     0
 10
0.0
 20
0.0
 30
0.0
  3
*Paper_Space
  1

  0
ENDBLK
  5
1D
330
1B
100
AcDbEntity
 67
     1
  8
0
100
AcDbBlockEnd
  0
BLOCK
  5
24
330
23
100
AcDbEntity
  8
0
100
AcDbBlockBegin
  2
*Paper_Space0
 70
     0
 10
0.0
 20
0.0
 30
0.0
  3
*Paper_Space0
  1

  0
ENDBLK
  5
25
330
23
100
AcDbEntity
  8
0
100
AcDbBlockEnd
  0
BLOCK
  5
89
330
88
100
AcDbEntity
  8
0
100
AcDbBlockBegin
  2
SW_CENTERMARKSYMBOL_0
 70
     0
 10
0.0
 20
0.0
 30
0.0
  3
SW_CENTERMARKSYMBOL_0
  1

  0
LINE
  5
8B
330
88
100
AcDbEntity
  8
FORMAT
 62
     0
100
AcDbLine
 10
0.0
 20
0.0
 30
0.0
 11
0.0
 21
2.5
 31
0.0
  0
LINE
  5
8C
330
88
100
AcDbEntity
  8
FORMAT
 62
     0
100
AcDbLine
 10
0.0
 20
0.0
 30
0.0
 11
-2.5
 21
0.0
 31
0.0
  0
LINE
  5
8D
330
88
100
AcDbEntity
  8
FORMAT
 62
     0
100
AcDbLine
 10
0.0
 20
0.0
 30
0.0
 11
0.0
 21
-2.5
 31
0.0
  0
LINE
  5
8E
330
88
100
AcDbEntity
  8
FORMAT
 62
     0
100
AcDbLine
 10
0.0
 20
0.0
 30
0.0
 11
2.5
 21
0.0
 31
0.0
  0
LINE
  5
8F
330
88
100
AcDbEntity
  8
FORMAT
 62
     0
100
AcDbLine
 10
0.0
 20
5.0
 30
0.0
 11
0.0
 21
40.0
 31
0.0
  0
LINE
  5
90
330
88
100
AcDbEntity
  8
FORMAT
 62
     0
100
AcDbLine
 10
-5.0
 20
0.0
 30
0.0
 11
-40.0
 21
0.0
 31
0.0
  0
LINE
  5
91
330
88
100
AcDbEntity
  8
FORMAT
 62
     0
100
AcDbLine
 10
0.0
 20
-5.0
 30
0.0
 11
0.0
 21
-40.0
 31
0.0
  0
LINE
  5
92
330
88
100
AcDbEntity
  8
FORMAT
 62
     0
100
AcDbLine
 10
5.0
 20
0.0
 30
0.0
 11
40.0
 21
0.0
 31
0.0
  0
ENDBLK
  5
8A
330
88
100
AcDbEntity
  8
0
100
AcDbBlockEnd
  0
ENDSEC
  0
SECTION
  2
ENTITIES
  0
CIRCLE
  5
83
330
1F
100
AcDbEntity
  8
0
  6
Continuous
 62
     7
370
    25
100
AcDbCircle
 10
136.0804557792
 20
118.8813202377
 30
0.0
 40
37.50000000000001
  0
CIRCLE
  5
84
330
1F
100
AcDbEntity
  8
0
  6
Continuous
 62
     7
370
    25
100
AcDbCircle
 10
136.0804557792
 20
118.8813202377
 30
0.0
 40
33.0
  0
CIRCLE
  5
85
330
1F
100
AcDbEntity
  8
0
  6
Continuous
 62
     7
370
    25
100
AcDbCircle
 10
136.0804557792
 20
118.8813202377
 30
0.0
 40
32.94974746830584
  0
CIRCLE
  5
86
330
1F
100
AcDbEntity
  8
0
  6
Continuous
 62
     7
370
    25
100
AcDbCircle
 10
136.0804557792
 20
118.8813202377
 30
0.0
 40
27.7502525316942
  0
CIRCLE
  5
87
330
1F
100
AcDbEntity
  8
0
  6
Continuous
 62
     7
370
    25
100
AcDbCircle
 10
136.0804557792
 20
118.8813202377
 30
0.0
 40
27.70000000000002
  0
INSERT
  5
93
330
1F
100
AcDbEntity
  8
FORMAT
 62
     7
100
AcDbBlockReference
  2
SW_CENTERMARKSYMBOL_0
 10
136.0804557792
 20
118.8813202377
 30
0.0
  0
ARC
  5
94
330
1F
100
AcDbEntity
  8
0
  6
Continuous
 62
     7
370
    25
100
AcDbCircle
 10
-50.9634138704
 20
154.3813202377
 30
0.0
 40
2.0
100
AcDbArc
 50
81.8698976458
 51
90.0
  0
ARC
  5
95
330
1F
100
AcDbEntity
  8
0
  6
Continuous
 62
     7
370
    25
100
AcDbCircle
 10
-50.9634138704
 20
83.3813202377
 30
0.0
 40
2.0
100
AcDbArc
 50
270.0
 51
278.1301023542
  0
LINE
  5
96
330
1F
100
AcDbEntity
  8
0
  6
Continuous
 62
     7
370
    25
100
AcDbLine
 10
-50.9634140575
 20
156.3813217278
 30
0.0
 11
-120.8212796295
 21
156.3813217278
 31
0.0
  0
LINE
  5
97
330
1F
100
AcDbEntity
  8
0
  6
Continuous
 62
     7
370
    25
100
AcDbLine
 10
-120.8212796295
 20
81.3813187476
 30
0.0
 11
-50.9634140575
 21
81.3813187476
 31
0.0
  0
LINE
  5
98
330
1F
100
AcDbEntity
  8
0
  6
Continuous
 62
     7
370
    25
100
AcDbLine
 10
-50.6805713916
 20
81.401420414
 30
0.0
 11
-8.9619859749
 21
87.3612180646
 31
0.0
  0
LINE
  5
99
330
1F
100
AcDbEntity
  8
0
  6
Continuous
 62
     7
370
    25
100
AcDbLine
 10
-8.9619859749
 20
150.4014224108
 30
0.0
 11
-50.6805713916
 21
156.3612200614
 31
0.0
  0
ARC
  5
9A
330
1F
100
AcDbEntity
  8
0
  6
Continuous
 62
     7
370
    25
100
AcDbCircle
 10
-8.6791426229
 20
152.3813202377
 30
0.0
 40
2.0
100
AcDbArc
 50
261.8698976458
 51
270.0
  0
ARC
  5
9B
330
1F
100
AcDbEntity
  8
0
  6
Continuous
 62
     7
370
    25
100
AcDbCircle
 10
-8.6791426229
 20
85.3813202377
 30
0.0
 40
2.0
100
AcDbArc
 50
90.0
 51
98.1301023542
  0
LINE
  5
9C
330
1F
100
AcDbEntity
  8
0
  6
Continuous
 62
     7
370
    25
100
AcDbLine
 10
54.1787248408
 20
150.3813207444
 30
0.0
 11
-8.679143309
 21
150.3813207444
 31
0.0
  0
LINE
  5
9D
330
1F
100
AcDbEntity
  8
0
  6
Continuous
 62
     7
370
    25
100
AcDbLine
 10
-8.679143309
 20
87.3813197311
 30
0.0
 11
54.1787248408
 21
87.3813197311
 31
0.0
  0
LINE
  5
9E
330
1F
100
AcDbEntity
  8
0
  6
Continuous
 62
     7
370
    25
100
AcDbLine
 10
-120.8212796295
 20
156.3813217278
 30
0.0
 11
-120.8212796295
 21
81.3813187476
 31
0.0
  0
LINE
  5
9F
330
1F
100
AcDbEntity
  8
0
  6
Continuous
 62
     7
370
    25
100
AcDbLine
 10
54.1787248408
 20
150.3813207444
 30
0.0
 11
54.1787248408
 21
87.3813197311
 31
0.0
  0
LINE
  5
A0
330
1F
100
AcDbEntity
  8
0
  6
Continuous
 62
     1
370
    25
100
AcDbLine
 10
-50.6805713916
 20
156.3612200614
 30
0.0
 11
-50.6805713916
 21
81.401420414
 31
0.0
  0
LINE
  5
A1
330
1F
100
AcDbEntity
  8
0
  6
Continuous
 62
     1
370
    25
100
AcDbLine
 10
-50.9634140575
 20
156.3813217278
 30
0.0
 11
-50.9634140575
 21
81.3813187476
 31
0.0
  0
LINE
  5
A2
330
1F
100
AcDbEntity
  8
0
  6
Continuous
 62
     1
370
    25
100
AcDbLine
 10
-8.9619859749
 20
150.4014224108
 30
0.0
 11
-8.9619859749
 21
87.3612180646
 31
0.0
  0
LINE
  5
A3
330
1F
100
AcDbEntity
  8
0
  6
Continuous
 62
     1
370
    25
100
AcDbLine
 10
-8.679143309
 20
150.3813207444
 30
0.0
 11
-8.679143309
 21
87.3813197311
 31
0.0
  0
ARC
  5
A4
330
1F
100
AcDbEntity
  8
0
  6
Continuous
 62
     7
370
    25
100
AcDbCircle
 10
171.5804557792
 20
300.6390137588
 30
0.0
 40
2.0
100
AcDbArc
 50
351.8698976458
 51
0.0
  0
ARC
  5
A5
330
1F
100
AcDbEntity
  8
0
  6
Continuous
 62
     7
370
    25
100
AcDbCircle
 10
100.5804557792
 20
300.6390137588
 30
0.0
 40
2.0
100
AcDbArc
 50
180.0
 51
188.1301023542
  0
LINE
  5
A6
330
1F
100
AcDbEntity
  8
0
  6
Continuous
 62
     7
370
    25
100
AcDbLine
 10
173.5804572693
 20
300.6390139459
 30
0.0
 11
173.5804572693
 21
370.4968795179
 31
0.0
  0
LINE
  5
A7
330
1F
100
AcDbEntity
  8
0
  6
Continuous
 62
     7
370
    25
100
AcDbLine
 10
98.5804542891
 20
370.4968795179
 30
0.0
 11
98.5804542891
 21
300.6390139459
 31
0.0
  0
LINE
  5
A8
330
1F
100
AcDbEntity
  8
0
  6
Continuous
 62
     7
370
    25
100
AcDbLine
 10
98.6005559555
 20
300.35617128
 30
0.0
 11
104.5603536061
 21
258.6375858633
 31
0.0
  0
LINE
  5
A9
330
1F
100
AcDbEntity
  8
0
  6
Continuous
 62
     7
370
    25
100
AcDbLine
 10
167.6005579523
 20
258.6375858633
 30
0.0
 11
173.5603556029
 21
300.35617128
 31
0.0
  0
ARC
  5
AA
330
1F
100
AcDbEntity
  8
0
  6
Continuous
 62
     7
370
    25
100
AcDbCircle
 10
169.5804557792
 20
258.3547425113
 30
0.0
 40
2.0
100
AcDbArc
 50
171.8698976458
 51
180.0
  0
ARC
  5
AB
330
1F
100
AcDbEntity
  8
0
  6
Continuous
 62
     7
370
    25
100
AcDbCircle
 10
102.5804557792
 20
258.3547425113
 30
0.0
 40
2.000000000000006
100
AcDbArc
 50
0.0
 51
8.1301023542
  0
LINE
  5
AC
330
1F
100
AcDbEntity
  8
0
  6
Continuous
 62
     7
370
    25
100
AcDbLine
 10
167.5804562858
 20
195.4968750475
 30
0.0
 11
167.5804562858
 21
258.3547431974
 31
0.0
  0
LINE
  5
AD
330
1F
100
AcDbEntity
  8
0
  6
Continuous
 62
     7
370
    25
100
AcDbLine
 10
104.5804552725
 20
258.3547431974
 30
0.0
 11
104.5804552725
 21
195.4968750475
 31
0.0
  0
LINE
  5
AE
330
1F
100
AcDbEntity
  8
0
  6
Continuous
 62
     7
370
    25
100
AcDbLine
 10
173.5804572693
 20
370.4968795179
 30
0.0
 11
98.5804542891
 21
370.4968795179
 31
0.0
  0
LINE
  5
AF
330
1F
100
AcDbEntity
  8
0
  6
Continuous
 62
     7
370
    25
100
AcDbLine
 10
167.5804562858
 20
195.4968750475
 30
0.0
 11
104.5804552725
 21
195.4968750475
 31
0.0
  0
LINE
  5
B0
330
1F
100
AcDbEntity
  8
0
  6
Continuous
 62
     1
370
    25
100
AcDbLine
 10
173.5603556029
 20
300.35617128
 30
0.0
 11
98.6005559555
 21
300.35617128
 31
0.0
  0
LINE
  5
B1
330
1F
100
AcDbEntity
  8
0
  6
Continuous
 62
     1
370
    25
100
AcDbLine
 10
173.5804572693
 20
300.6390139459
 30
0.0
 11
98.5804542891
 21
300.6390139459
 31
0.0
  0
LINE
  5
B2
330
1F
100
AcDbEntity
  8
0
  6
Continuous
 62
     1
370
    25
100
AcDbLine
 10
167.6005579523
 20
258.6375858633
 30
0.0
 11
104.5603536061
 21
258.6375858633
 31
0.0
  0
LINE
  5
B3
330
1F
100
AcDbEntity
  8
0
  6
Continuous
 62
     1
370
    25
100
AcDbLine
 10
167.5804562858
 20
258.3547431974
 30
0.0
 11
104.5804552725
 21
258.3547431974
 31
0.0
  0
ARC
  5
B4
330
1F
100
AcDbEntity
  8
0
  6
Continuous
 62
     7
370
    25
100
AcDbCircle
 10
313.3082398022
 20
83.3813202377
 30
0.0
 40
2.0
100
AcDbArc
 50
261.8698976458
 51
270.0
  0
ARC
  5
B5
330
1F
100
AcDbEntity
  8
0
  6
Continuous
 62
     7
370
    25
100
AcDbCircle
 10
313.3082398022
 20
154.3813202377
 30
0.0
 40
2.0
100
AcDbArc
 50
90.0
 51
98.1301023542
  0
LINE
  5
B6
330
1F
100
AcDbEntity
  8
0
  6
Continuous
 62
     7
370
    25
100
AcDbLine
 10
313.3082399893
 20
81.3813187476
 30
0.0
 11
383.1661055613
 21
81.3813187476
 31
0.0
  0
LINE
  5
B7
330
1F
100
AcDbEntity
  8
0
  6
Continuous
 62
     7
370
    25
100
AcDbLine
 10
383.1661055613
 20
156.3813217278
 30
0.0
 11
313.3082399893
 21
156.3813217278
 31
0.0
  0
LINE
  5
B8
330
1F
100
AcDbEntity
  8
0
  6
Continuous
 62
     7
370
    25
100
AcDbLine
 10
313.0253973234
 20
156.3612200614
 30
0.0
 11
271.3068119067
 21
150.4014224108
 31
0.0
  0
LINE
  5
B9
330
1F
100
AcDbEntity
  8
0
  6
Continuous
 62
     7
370
    25
100
AcDbLine
 10
271.3068119067
 20
87.3612180646
 30
0.0
 11
313.0253973234
 21
81.401420414
 31
0.0
  0
ARC
  5
BA
330
1F
100
AcDbEntity
  8
0
  6
Continuous
 62
     7
370
    25
100
AcDbCircle
 10
271.0239685547
 20
85.3813202377
 30
0.0
 40
2.000000000000006
100
AcDbArc
 50
81.8698976458
 51
90.0
  0
ARC
  5
BB
330
1F
100
AcDbEntity
  8
0
  6
Continuous
 62
     7
370
    25
100
AcDbCircle
 10
271.0239685547
 20
152.3813202377
 30
0.0
 40
2.0
100
AcDbArc
 50
270.0
 51
278.1301023542
  0
LINE
  5
BC
330
1F
100
AcDbEntity
  8
0
  6
Continuous
 62
     7
370
    25
100
AcDbLine
 10
208.166101091
 20
87.3813197311
 30
0.0
 11
271.0239692408
 21
87.3813197311
 31
0.0
  0
LINE
  5
BD
330
1F
100
AcDbEntity
  8
0
  6
Continuous
 62
     7
370
    25
100
AcDbLine
 10
271.0239692408
 20
150.3813207444
 30
0.0
 11
208.166101091
 21
150.3813207444
 31
0.0
  0
LINE
  5
BE
330
1F
100
AcDbEntity
  8
0
  6
Continuous
 62
     7
370
    25
100
AcDbLine
 10
383.1661055613
 20
118.8813202377
 30
0.0
 11
383.1661055613
 21
156.3813217278
 31
0.0
  0
LINE
  5
BF
330
1F
100
AcDbEntity
  8
0
  6
Continuous
 62
     7
370
    25
100
AcDbLine
 10
383.1661055613
 20
81.3813187476
 30
0.0
 11
383.1661055613
 21
118.8813202377
 31
0.0
  0
LINE
  5
C0
330
1F
100
AcDbEntity
  8
0
  6
Continuous
 62
     7
370
    25
100
AcDbLine
 10
208.166101091
 20
118.8813202377
 30
0.0
 11
208.166101091
 21
150.3813207444
 31
0.0
  0
LINE
  5
C1
330
1F
100
AcDbEntity
  8
0
  6
Continuous
 62
     7
370
    25
100
AcDbLine
 10
208.166101091
 20
87.3813197311
 30
0.0
 11
208.166101091
 21
118.8813202377
 31
0.0
  0
LINE
  5
C2
330
1F
100
AcDbEntity
  8
0
  6
Continuous
 62
     1
370
    25
100
AcDbLine
 10
313.0253973234
 20
118.8813202377
 30
0.0
 11
313.0253973234
 21
156.3612200614
 31
0.0
  0
LINE
  5
C3
330
1F
100
AcDbEntity
  8
0
  6
Continuous
 62
     1
370
    25
100
AcDbLine
 10
313.0253973234
 20
81.401420414
 30
0.0
 11
313.0253973234
 21
118.8813202377
 31
0.0
  0
LINE
  5
C4
330
1F
100
AcDbEntity
  8
0
  6
Continuous
 62
     1
370
    25
100
AcDbLine
 10
313.3082399893
 20
118.8813202377
 30
0.0
 11
313.3082399893
 21
156.3813217278
 31
0.0
  0
LINE
  5
C5
330
1F
100
AcDbEntity
  8
0
  6
Continuous
 62
     1
370
    25
100
AcDbLine
 10
313.3082399893
 20
81.3813187476
 30
0.0
 11
313.3082399893
 21
118.8813202377
 31
0.0
  0
LINE
  5
C6
330
1F
100
AcDbEntity
  8
0
  6
Continuous
 62
     1
370
    25
100
AcDbLine
 10
271.3068119067
 20
118.8813202377
 30
0.0
 11
271.3068119067
 21
150.4014224108
 31
0.0
  0
LINE
  5
C7
330
1F
100
AcDbEntity
  8
0
  6
Continuous
 62
     1
370
    25
100
AcDbLine
 10
271.3068119067
 20
87.3612180646
 30
0.0
 11
271.3068119067
 21
118.8813202377
 31
0.0
  0
LINE
  5
C8
330
1F
100
AcDbEntity
  8
0
  6
Continuous
 62
     1
370
    25
100
AcDbLine
 10
271.0239692408
 20
118.8813202377
 30
0.0
 11
271.0239692408
 21
150.3813207444
 31
0.0
  0
LINE
  5
C9
330
1F
100
AcDbEntity
  8
0
  6
Continuous
 62
     1
370
    25
100
AcDbLine
 10
271.0239692408
 20
87.3813197311
 30
0.0
 11
271.0239692408
 21
118.8813202377
 31
0.0
  0
ARC
  5
CA
330
1F
100
AcDbEntity
  8
0
  6
Continuous
 62
     7
370
    25
100
AcDbCircle
 10
100.5804557792
 20
-65.594685138
 30
0.0
 40
2.0
100
AcDbArc
 50
171.8698976458
 51
180.0
  0
ARC
  5
CB
330
1F
100
AcDbEntity
  8
0
  6
Continuous
 62
     7
370
    25
100
AcDbCircle
 10
171.5804557792
 20
-65.594685138
 30
0.0
 40
2.0
100
AcDbArc
 50
0.0
 51
8.1301023542
  0
LINE
  5
CC
330
1F
100
AcDbEntity
  8
0
  6
Continuous
 62
     7
370
    25
100
AcDbLine
 10
98.5804542891
 20
-65.5946853251
 30
0.0
 11
98.5804542891
 21
-135.4525508971
 31
0.0
  0
LINE
  5
CD
330
1F
100
AcDbEntity
  8
0
  6
Continuous
 62
     7
370
    25
100
AcDbLine
 10
173.5804572693
 20
-135.4525508971
 30
0.0
 11
173.5804572693
 21
-65.5946853251
 31
0.0
  0
LINE
  5
CE
330
1F
100
AcDbEntity
  8
0
  6
Continuous
 62
     7
370
    25
100
AcDbLine
 10
173.5603556029
 20
-65.3118426592
 30
0.0
 11
167.6005579523
 21
-23.5932572425
 31
0.0
  0
LINE
  5
CF
330
1F
100
AcDbEntity
  8
0
  6
Continuous
 62
     7
370
    25
100
AcDbLine
 10
104.5603536061
 20
-23.5932572425
 30
0.0
 11
98.6005559555
 21
-65.3118426592
 31
0.0
  0
ARC
  5
D0
330
1F
100
AcDbEntity
  8
0
  6
Continuous
 62
     7
370
    25
100
AcDbCircle
 10
102.5804557792
 20
-23.3104138906
 30
0.0
 40
2.0
100
AcDbArc
 50
351.8698976458
 51
0.0
  0
ARC
  5
D1
330
1F
100
AcDbEntity
  8
0
  6
Continuous
 62
     7
370
    25
100
AcDbCircle
 10
169.5804557792
 20
-23.3104138906
 30
0.0
 40
2.0
100
AcDbArc
 50
180.0
 51
188.1301023542
  0
LINE
  5
D2
330
1F
100
AcDbEntity
  8
0
  6
Continuous
 62
     7
370
    25
100
AcDbLine
 10
104.5804552725
 20
39.5474535732
 30
0.0
 11
104.5804552725
 21
-23.3104145766
 31
0.0
  0
LINE
  5
D3
330
1F
100
AcDbEntity
  8
0
  6
Continuous
 62
     7
370
    25
100
AcDbLine
 10
167.5804562858
 20
-23.3104145766
 30
0.0
 11
167.5804562858
 21
39.5474535732
 31
0.0
  0
LINE
  5
D4
330
1F
100
AcDbEntity
  8
0
  6
Continuous
 62
     7
370
    25
100
AcDbLine
 10
98.5804542891
 20
-135.4525508971
 30
0.0
 11
173.5804572693
 21
-135.4525508971
 31
0.0
  0
LINE
  5
D5
330
1F
100
AcDbEntity
  8
0
  6
Continuous
 62
     7
370
    25
100
AcDbLine
 10
104.5804552725
 20
39.5474535732
 30
0.0
 11
167.5804562858
 21
39.5474535732
 31
0.0
  0
LINE
  5
D6
330
1F
100
AcDbEntity
  8
0
  6
Continuous
 62
     1
370
    25
100
AcDbLine
 10
98.6005559555
 20
-65.3118426592
 30
0.0
 11
173.5603556029
 21
-65.3118426592
 31
0.0
  0
LINE
  5
D7
330
1F
100
AcDbEntity
  8
0
  6
Continuous
 62
     1
370
    25
100
AcDbLine
 10
98.5804542891
 20
-65.5946853251
 30
0.0
 11
173.5804572693
 21
-65.5946853251
 31
0.0
  0
LINE
  5
D8
330
1F
100
AcDbEntity
  8
0
  6
Continuous
 62
     1
370
    25
100
AcDbLine
 10
104.5603536061
 20
-23.5932572425
 30
0.0
 11
167.6005579523
 21
-23.5932572425
 31
0.0
  0
LINE
  5
D9
330
1F
100
AcDbEntity
  8
0
  6
Continuous
 62
     1
370
    25
100
AcDbLine
 10
104.5804552725
 20
-23.3104145766
 30
0.0
 11
167.5804562858
 21
-23.3104145766
 31
0.0
  0
LINE
  5
DA
330
1F
100
AcDbEntity
  8
0
  6
Continuous
 62
     7
370
    25
100
AcDbLine
 10
314.1082846969
 20
8.1880788495
 30
0.0
 11
264.7113142317
 21
36.7043429133
 31
0.0
  0
LINE
  5
DB
330
1F
100
AcDbEntity
  8
0
  6
Continuous
 62
     7
370
    25
100
AcDbLine
 10
227.2143615638
 20
-28.2493228905
 30
0.0
 11
276.611332029
 21
-56.7655869542
 31
0.0
  0
SPLINE
  5
DC
330
1F
100
AcDbEntity
  8
0
  6
Continuous
 62
     7
370
    25
100
AcDbSpline
210
0.0
220
0.0
230
1.0
 70
     8
 71
     3
 72
     9
 73
     5
 74
     0
 42
0.000000001
 43
0.00000001
 40
0.0
 40
0.0
 40
0.0
 40
0.0
 40
0.4595295678890769
 40
1.0
 40
1.0
 40
1.0
 40
1.0
 10
316.0156034477383
 20
6.849472548147856
 30
0.0
 10
315.7404665859092
 20
7.07403088341612
 30
0.0
 10
315.1417306588765
 20
7.562700929828595
 30
0.0
 10
314.4829811583434
 20
7.959007191970715
 30
0.0
 10
314.1269465311374
 20
8.173199008718928
 30
0.0
  0
SPLINE
  5
DD
330
1F
100
AcDbEntity
  8
0
  6
Continuous
 62
     7
370
    25
100
AcDbSpline
210
0.0
220
0.0
230
1.0
 70
     8
 71
     3
 72
     9
 73
     5
 74
     0
 42
0.000000001
 43
0.00000001
 40
0.0
 40
0.0
 40
0.0
 40
0.0
 40
0.4736752685526226
 40
1.0
 40
1.0
 40
1.0
 40
1.0
 10
276.6311107547199
 20
-56.77020832189343
 30
0.0
 10
276.9763218981602
 20
-56.96188466316764
 30
0.0
 10
277.705114736543
 20
-57.3665423558943
 30
0.0
 10
278.4881494310755
 20
-57.66538240094719
 30
0.0
 10
278.9002799563893
 20
-57.82266930740538
 30
0.0
  0
LINE
  5
DE
330
1F
100
AcDbEntity
  8
0
  6
Continuous
 62
     7
370
    25
100
AcDbLine
 10
278.8105756577
 20
-57.7905692634
 30
0.0
 11
310.9734192268
 21
-69.5113934633
 31
0.0
  0
LINE
  5
DF
330
1F
100
AcDbEntity
  8
0
  6
Continuous
 62
     7
370
    25
100
AcDbLine
 10
342.3297156781
 20
-15.1948090491
 30
0.0
 11
316.095698265
 21
6.7961565698
 31
0.0
  0
LINE
  5
E0
330
1F
100
AcDbEntity
  8
0
  6
Continuous
 62
     7
370
    25
100
AcDbLine
 10
385.4552482557
 20
-39.9276624775
 30
0.0
 11
341.7051836769
 21
-14.6712877932
 31
0.0
  0
LINE
  5
E1
330
1F
100
AcDbEntity
  8
0
  6
Continuous
 62
     7
370
    25
100
AcDbLine
 10
310.2077426982
 20
-69.232366034
 30
0.0
 11
353.9578072771
 21
-94.4887407183
 31
0.0
  0
LWPOLYLINE
  5
E2
330
1F
100
AcDbEntity
  8
0
  6
Continuous
 62
     7
370
    25
100
AcDbPolyline
 90
      103
 70
   128
 43
0.0
 10
219.4463325496
 20
-11.0801426935
 10
219.4966269108
 20
-9.1660961563
 10
219.6473150651
 20
-7.2012441484
 10
219.8978280301
 20
-5.1930380122
 10
220.2472122333
 20
-3.1490978765
 10
220.6941479517
 20
-1.0771742554
 10
221.236933506
 20
1.014870585
 10
221.8735142376
 20
3.1191021677
 10
222.6014746051
 20
5.2275389008
 10
223.4180513557
 20
7.3321817345
 10
224.3201493304
 20
9.4250491407
 10
225.3043440975
 20
11.4981976454
 10
226.3669043441
 20
13.5437682147
 10
227.5037997776
 20
15.5539984215
 10
228.7107142974
 20
17.5212619886
 10
229.9830736533
 20
19.4380999647
 10
231.3160493969
 20
21.2972366938
 10
232.7045852237
 20
23.09162392
 10
234.1434154116
 20
24.8144544734
 10
235.6270793096
 20
26.4591873647
 10
237.1499503134
 20
28.019590368
 10
238.7062523291
 20
29.4897434415
 10
240.2900801883
 20
30.8640657218
 10
241.8954273063
 20
32.1373467006
 10
243.5162036282
 20
33.3047565842
 10
245.1462605709
 20
34.3618667759
 10
246.7794152246
 20
35.3046668894
 10
248.4094721673
 20
36.1295803838
 10
250.0302484893
 20
36.8334790096
 10
251.6355956073
 20
37.4136923605
 10
253.2194234664
 20
37.8680188024
 10
254.7757254821
 20
38.1947337889
 10
256.298596486
 20
38.3926002208
 10
257.782260384
 20
38.4608692039
 10
259.2210905718
 20
38.3992766249
 10
260.6096263986
 20
38.2080587399
 10
261.9426021422
 20
37.8879430454
 10
263.2149614981
 20
37.4401399124
 10
264.4218760179
 20
36.8663501889
 10
265.5587714514
 20
36.1687515094
 10
266.621331698
 20
35.3499868875
 10
267.6055264651
 20
34.4131654736
 10
268.5076244398
 20
33.3618382191
 10
269.3242011904
 20
32.1999948337
 10
270.0521615579
 20
30.9320432506
 10
270.6887422895
 20
29.562792136
 10
271.2315278438
 20
28.0974341573
 10
271.6784635622
 20
26.5415315328
 10
272.0278477654
 20
24.9009818118
 10
272.2783607304
 20
23.1820117885
 10
272.4290488848
 20
21.3911406203
 10
272.4793432459
 20
19.5351627164
 10
272.4290488848
 20
17.6211161791
 10
272.2783607304
 20
15.6562641712
 10
272.0278477654
 20
13.648058035
 10
271.6784635622
 20
11.6041178993
 10
271.2315278438
 20
9.5321942782
 10
270.6887422895
 20
7.4401494378
 10
270.0521615579
 20
5.3359178552
 10
269.3242011904
 20
3.227481122
 10
268.5076244398
 20
1.1228382883
 10
267.6055264651
 20
-0.9700291179
 10
266.621331698
 20
-3.0431776226
 10
265.5587714514
 20
-5.0887481919
 10
264.4218760179
 20
-7.0989783987
 10
263.2149614981
 20
-9.0662419658
 10
261.9426021422
 20
-10.9830799419
 10
260.6096263986
 20
-12.842216671
 10
259.2210905718
 20
-14.6366038972
 10
257.782260384
 20
-16.3594344506
 10
256.298596486
 20
-18.0041673419
 10
254.7757254821
 20
-19.5645703452
 10
253.2194234664
 20
-21.0347234187
 10
251.6355956073
 20
-22.409045699
 10
250.0302484893
 20
-23.6823266778
 10
248.4094721673
 20
-24.8497365614
 10
246.7794152246
 20
-25.9068467531
 10
245.1462605709
 20
-26.8496468666
 10
243.5162036282
 20
-27.674560361
 10
241.8954273063
 20
-28.3784589868
 10
240.2900801883
 20
-28.9586723376
 10
238.7062523291
 20
-29.4129987796
 10
237.1499503134
 20
-29.7397137661
 10
235.6270793096
 20
-29.937580198
 10
234.1434154116
 20
-30.005849181
 10
232.7045852237
 20
-29.9442566021
 10
231.3160493969
 20
-29.7530387171
 10
229.9830736533
 20
-29.4329230226
 10
228.7107142974
 20
-28.9851198896
 10
227.5037997776
 20
-28.4113301661
 10
226.3669043441
 20
-27.7137314866
 10
225.3043440975
 20
-26.8949668647
 10
224.3201493304
 20
-25.9581454508
 10
223.4180513557
 20
-24.9068181963
 10
222.6014746051
 20
-23.7449748108
 10
221.8735142376
 20
-22.4770232278
 10
221.236933506
 20
-21.1077721132
 10
220.6941479517
 20
-19.6424141345
 10
220.2472122333
 20
-18.08651151
 10
219.8978280301
 20
-16.445961789
 10
219.6473150651
 20
-14.7269917656
 10
219.4966269108
 20
-12.9361205975
 10
219.4463325496
 20
-11.0801426935
  0
LWPOLYLINE
  5
E3
330
1F
100
AcDbEntity
  8
0
  6
Continuous
 62
     7
370
    25
100
AcDbPolyline
 90
       97
 70
   128
 43
0.0
 10
222.628314245
 20
-9.2432237607
 10
222.6782740656
 20
-7.4520398581
 10
222.8279454272
 20
-5.6108405418
 10
223.076680322
 20
-3.7275136525
 10
223.4234198106
 20
-1.8101203775
 10
223.8666742651
 20
0.1331249028
 10
224.4045483945
 20
2.0939036625
 10
225.0347399272
 20
4.063819847
 10
225.7545475137
 20
6.0344356136
 10
226.5608904827
 20
7.9973139154
 10
227.4503154268
 20
9.9440504406
 10
228.4190146417
 20
11.866307071
 10
229.4628379799
 20
13.7558537061
 10
230.5773178755
 20
15.6045979191
 10
231.7576798807
 20
17.4046244996
 10
232.9988716421
 20
19.1482243489
 10
234.2955760714
 20
20.8279309809
 10
235.6422416383
 20
22.4365516981
 10
237.0331021271
 20
23.9672002894
 10
238.4622010028
 20
25.4133187016
 10
239.9234184113
 20
26.7687154399
 10
241.4104981796
 20
28.0275902804
 10
242.917071524
 20
29.1845464353
 10
244.436687013
 20
30.2346367483
 10
245.9628378978
 20
31.1733566576
 10
247.4889887825
 20
31.9966930534
 10
249.0086042715
 20
32.7011134383
 10
250.5151776159
 20
33.2836098414
 10
252.0022573842
 20
33.7416807553
 10
253.4634747927
 20
34.0733697261
 10
254.8925736684
 20
34.2772537545
 10
256.2834341572
 20
34.352458502
 10
257.6300997241
 20
34.298664753
 10
258.9268041534
 20
34.1161011874
 10
260.1679959148
 20
33.8055508425
 10
261.34835792
 20
33.3683412248
 10
262.4628378156
 20
32.8063481101
 10
263.5066611538
 20
32.1219742484
 10
264.4753603687
 20
31.318153925
 10
265.3647853128
 20
30.3983255818
 10
266.1711282818
 20
29.3664310555
 10
266.8909358683
 20
28.2268874384
 10
267.521127401
 20
26.9845749101
 10
268.0590015304
 20
25.6448124015
 10
268.502255985
 20
24.2133378211
 10
268.8489954735
 20
22.6962814382
 10
269.0977303683
 20
21.1001377455
 10
269.2474017299
 20
19.4317453051
 10
269.2973615505
 20
17.6982437835
 10
269.2474017299
 20
15.9070598809
 10
269.0977303683
 20
14.0658605647
 10
268.8489954735
 20
12.1825336753
 10
268.502255985
 20
10.2651404003
 10
268.0590015304
 20
8.32189512
 10
267.521127401
 20
6.3611163603
 10
266.8909358683
 20
4.3912001758
 10
266.1711282818
 20
2.4205844093
 10
265.3647853128
 20
0.4577061075
 10
264.4753603687
 20
-1.4890304178
 10
263.5066611538
 20
-3.4112870482
 10
262.4628378156
 20
-5.3008336833
 10
261.34835792
 20
-7.1495778962
 10
260.1679959148
 20
-8.9496044767
 10
258.9268041534
 20
-10.6932043261
 10
257.6300997241
 20
-12.3729109581
 10
256.2834341572
 20
-13.9815316752
 10
254.8925736684
 20
-15.5121802666
 10
253.4634747927
 20
-16.9582986788
 10
252.0022573842
 20
-18.3136954171
 10
250.5151776159
 20
-19.5725702576
 10
249.0086042715
 20
-20.7295264125
 10
247.4889887825
 20
-21.7796167255
 10
245.9628378978
 20
-22.7183366348
 10
244.436687013
 20
-23.5416730306
 10
242.917071524
 20
-24.2460934154
 10
241.4104981796
 20
-24.8285898186
 10
239.9234184113
 20
-25.2866607325
 10
238.4622010028
 20
-25.6183497033
 10
237.0331021271
 20
-25.8222337316
 10
235.6422416383
 20
-25.8974384792
 10
234.2955760714
 20
-25.8436447302
 10
232.9988716421
 20
-25.6610811646
 10
231.7576798807
 20
-25.3505308197
 10
230.5773178755
 20
-24.913321202
 10
229.4628379799
 20
-24.3513280873
 10
228.4190146417
 20
-23.6669542256
 10
227.4503154268
 20
-22.8631339021
 10
226.5608904827
 20
-21.943305559
 10
225.7545475137
 20
-20.9114110327
 10
225.0347399272
 20
-19.7718674156
 10
224.4045483945
 20
-18.5295548873
 10
223.8666742651
 20
-17.1897923787
 10
223.4234198106
 20
-15.7583177983
 10
223.076680322
 20
-14.2412614154
 10
222.8279454272
 20
-12.6451177227
 10
222.6782740656
 20
-10.9767252823
 10
222.628314245
 20
-9.2432237607
  0
LINE
  5
E4
330
1F
100
AcDbEntity
  8
0
  6
Continuous
 62
     7
370
    25
100
AcDbLine
 10
316.028450334
 20
6.8521390323
 30
0.0
 11
316.095698265
 21
6.7961565698
 31
0.0
  0
LINE
  5
E5
330
1F
100
AcDbEntity
  8
0
  6
Continuous
 62
     7
370
    25
100
AcDbLine
 10
278.8921140045
 20
-57.8199733679
 30
0.0
 11
278.8105756577
 21
-57.7905692634
 31
0.0
  0
LINE
  5
E6
330
1F
100
AcDbEntity
  8
0
  6
Continuous
 62
     7
370
    25
100
AcDbLine
 10
311.0414745333
 20
-69.5359377053
 30
0.0
 11
310.9734192268
 21
-69.5113934633
 31
0.0
  0
LWPOLYLINE
  5
E7
330
1F
100
AcDbEntity
  8
0
  6
Continuous
 62
     7
370
    25
100
AcDbPolyline
 90
       49
 70
   128
 43
0.0
 10
385.4552482557
 20
-39.9276624775
 10
386.2259850403
 20
-40.4184432507
 10
387.1870425047
 20
-41.1763065637
 10
388.0700268835
 20
-42.0504335246
 10
388.8709948123
 20
-43.0369225887
 10
389.5863703942
 20
-44.1313657776
 10
390.2129583714
 20
-45.3288745361
 10
390.7479586126
 20
-46.6241033077
 10
391.1889832354
 20
-48.0112647457
 10
391.5340605576
 20
-49.4841654554
 10
391.7816522192
 20
-51.036225007
 10
391.9306505483
 20
-52.660512818
 10
391.980391732
 20
-54.3497736299
 10
391.9306505483
 20
-56.0964643901
 10
391.7816522192
 20
-57.8927820102
 10
391.5340605576
 20
-59.7307048094
 10
391.1889832354
 20
-61.6020233147
 10
390.7479586126
 20
-63.4983809437
 10
390.2129583714
 20
-65.4113078457
 10
389.5863703942
 20
-67.3322596837
 10
388.8709948123
 20
-69.2526579386
 10
388.0700268835
 20
-71.1639248888
 10
387.1870425047
 20
-73.0575239134
 10
386.2259850403
 20
-74.9250005561
 10
385.1911495175
 20
-76.7580091395
 10
384.0871549676
 20
-78.5483682769
 10
382.9189325719
 20
-80.2880783613
 10
381.6917006369
 20
-81.9693709936
 10
380.4109402287
 20
-83.5847367367
 10
379.0823714649
 20
-85.126960095
 10
377.7119271729
 20
-86.5891544931
 10
376.305729841
 20
-87.9647892698
 10
374.8700580326
 20
-89.2477197136
 10
373.4113249833
 20
-90.4322161485
 10
371.9360455094
 20
-91.5129891206
 10
370.4508084308
 20
-92.485209881
 10
368.962247102
 20
-93.3445380448
 10
367.4770100235
 20
-94.0871355143
 10
366.0017305495
 20
-94.7096839667
 10
364.5429975002
 20
-95.2094048609
 10
363.1073256918
 20
-95.5840658042
 10
361.7011283599
 20
-95.8319919085
 10
360.3306840679
 20
-95.9520788102
 10
359.0021153041
 20
-95.9437882959
 10
357.7213548959
 20
-95.8071570443
 10
356.494122961
 20
-95.5427962439
 10
355.3259005652
 20
-95.1518870276
 10
354.2219060153
 20
-94.6361728659
 10
353.9578072771
 20
-94.4887407183
  0
LWPOLYLINE
  5
E8
330
1F
100
AcDbEntity
  8
0
  6
Continuous
 62
     1
370
    25
100
AcDbPolyline
 90
       53
 70
   128
 43
0.0
 10
314.1082846969
 20
8.1880788495
 10
314.9557419166
 20
7.6524874456
 10
316.0183021631
 20
6.8337228237
 10
317.0024969303
 20
5.8969014098
 10
317.9045949049
 20
4.8455741553
 10
318.7211716556
 20
3.6837307699
 10
319.4491320231
 20
2.4157791868
 10
320.0857127546
 20
1.0465280723
 10
320.628498309
 20
-0.4188299065
 10
321.0754340273
 20
-1.974732531
 10
321.4248182306
 20
-3.615282252
 10
321.6753311956
 20
-5.3342522753
 10
321.8260193499
 20
-7.1251234435
 10
321.8763137111
 20
-8.9811013474
 10
321.8260193499
 20
-10.8951478847
 10
321.6753311956
 20
-12.8599998926
 10
321.4248182306
 20
-14.8682060288
 10
321.0754340273
 20
-16.9121461644
 10
320.628498309
 20
-18.9840697855
 10
320.0857127546
 20
-21.0761146259
 10
319.4491320231
 20
-23.1803462086
 10
318.7211716556
 20
-25.2887829418
 10
317.9045949049
 20
-27.3934257755
 10
317.0024969303
 20
-29.4862931817
 10
316.0183021631
 20
-31.5594416864
 10
314.9557419166
 20
-33.6050122557
 10
313.8188464831
 20
-35.6152424625
 10
312.6119319633
 20
-37.5825060296
 10
311.3395726074
 20
-39.4993440057
 10
310.0065968637
 20
-41.3584807348
 10
308.618061037
 20
-43.152867961
 10
307.1792308491
 20
-44.8756985144
 10
305.6955669511
 20
-46.5204314057
 10
304.1726959473
 20
-48.080834409
 10
302.6163939315
 20
-49.5509874825
 10
301.0325660724
 20
-50.9253097628
 10
299.4272189544
 20
-52.1985907416
 10
297.8064426325
 20
-53.3660006251
 10
296.1763856898
 20
-54.4231108168
 10
294.543231036
 20
-55.3659109304
 10
292.9131740933
 20
-56.1908244247
 10
291.2923977714
 20
-56.8947230506
 10
289.6870506534
 20
-57.4749364014
 10
288.1032227943
 20
-57.9292628434
 10
286.5469207785
 20
-58.2559778299
 10
285.0240497747
 20
-58.4538442618
 10
283.5403858767
 20
-58.5221132448
 10
282.1015556888
 20
-58.4605206659
 10
280.7130198621
 20
-58.2693027809
 10
279.3800441184
 20
-57.9491870864
 10
278.1076847625
 20
-57.5013839534
 10
276.9007702428
 20
-56.9275942299
 10
276.611332029
 20
-56.7655869542
  0
LWPOLYLINE
  5
E9
330
1F
100
AcDbEntity
  8
0
  6
Continuous
 62
     1
370
    25
100
AcDbPolyline
 90
       50
 70
   128
 43
0.0
 10
316.095698265
 20
6.7961565698
 10
316.2072280458
 20
6.7015833045
 10
317.1908959773
 20
5.7652638456
 10
318.0925092632
 20
4.7144993791
 10
318.9086487403
 20
3.5532796142
 10
319.6362192494
 20
2.2860079216
 10
320.2724575379
 20
0.9174891649
 10
320.8149533326
 20
-0.547082468
 10
321.2616493408
 20
-2.1021516027
 10
321.6108465174
 20
-3.7418214505
 10
321.8612251393
 20
-5.4598697803
 10
322.0118316341
 20
-7.249781807
 10
322.0620996535
 20
-9.1047644526
 10
322.0118316341
 20
-11.0177853181
 10
321.8612251393
 20
-12.9815839024
 10
321.6108465174
 20
-14.9887132357
 10
321.2616493408
 20
-17.0315575619
 10
320.8149533326
 20
-19.1023709297
 10
320.2724575379
 20
-21.193294875
 10
319.6362192494
 20
-23.2963987233
 10
318.9086487403
 20
-25.4037054452
 10
318.0925092632
 20
-27.507219793
 10
317.1908959773
 20
-29.5989648015
 10
316.2072280458
 20
-31.6710030797
 10
315.1452380988
 20
-33.7154763546
 10
314.0089524775
 20
-35.7246290427
 10
312.8026833313
 20
-37.6908386688
 10
311.5310062275
 20
-39.6066485631
 10
310.1987456632
 20
-41.4647899134
 10
308.8109539917
 20
-43.2582137029
 10
307.372895618
 20
-44.9801211268
 10
305.8900265832
 20
-46.623972336
 10
304.3679721746
 20
-48.1835389067
 10
302.8125045347
 20
-49.6529030782
 10
301.229524881
 20
-51.02648931
 10
299.6250384806
 20
-52.2990878542
 10
298.0051312728
 20
-53.4658743348
 10
296.3759478894
 20
-54.5224163525
 10
294.7436687706
 20
-55.4647110305
 10
293.1144853872
 20
-56.2891841087
 10
291.4945781794
 20
-56.9927026797
 10
289.890091779
 20
-57.5726047018
 10
288.3071121252
 20
-58.0266878752
 10
286.7516444854
 20
-58.3532284138
 10
285.2295900767
 20
-58.5509884575
 10
283.746721042
 20
-58.6192213931
 10
282.3086626682
 20
-58.5576608261
 10
280.9208709968
 20
-58.3665471943
 10
279.5886104325
 20
-58.0466011501
 10
278.8921140045
 20
-57.8199733679
  0
LWPOLYLINE
  5
EA
330
1F
100
AcDbEntity
  8
0
  6
Continuous
 62
     1
370
    25
100
AcDbPolyline
 90
       46
 70
   128
 43
0.0
 10
342.3297156781
 20
-15.1948090491
 10
342.5509721448
 20
-15.3854010503
 10
343.4345202377
 20
-16.2600862439
 10
344.235999197
 20
-17.2472034983
 10
344.9518318088
 20
-18.3423448351
 10
345.578818864
 20
-19.5406186567
 10
346.1141602312
 20
-20.8366740834
 10
346.5554667111
 20
-22.2247207267
 10
346.9007653042
 20
-23.6985602486
 10
347.1485150165
 20
-25.2516103179
 10
347.297608176
 20
-26.876935029
 10
347.3473809699
 20
-28.5672738
 10
347.297608176
 20
-30.3150790156
 10
347.1485150165
 20
-32.1125430246
 10
346.9007653042
 20
-33.951638823
 10
346.5554667111
 20
-35.8241516145
 10
346.1141602312
 20
-37.721719874
 10
345.578818864
 20
-39.6358672869
 10
344.9518318088
 20
-41.5580449537
 10
344.235999197
 20
-43.4796690319
 10
343.4345202377
 20
-45.3921541957
 10
342.5509721448
 20
-47.2869623034
 10
341.589302234
 20
-49.155629013
 10
340.5538055325
 20
-50.9898086472
 10
339.44910634
 20
-52.7813106942
 10
338.2801384719
 20
-54.5221309845
 10
337.052124186
 20
-56.2044957961
 10
335.7705465241
 20
-57.8208915095
 10
334.441129555
 20
-59.3641003481
 10
333.0698113744
 20
-60.8272281323
 10
331.6627157878
 20
-62.2037403989
 10
330.2261282732
 20
-63.4874884446
 10
328.7664643713
 20
-64.6727412626
 10
327.290243508
 20
-65.7542021751
 10
325.804058537
 20
-66.7270461885
 10
324.3145474223
 20
-67.586922652
 10
322.8283624513
 20
-68.3299912819
 10
321.352141588
 20
-68.9529386988
 10
319.892477686
 20
-69.4529779496
 10
318.4558901715
 20
-69.8278785429
 10
317.0487945849
 20
-70.07596426
 10
315.6774764043
 20
-70.1961267458
 10
314.3480594351
 20
-70.1878300682
 10
313.0664817732
 20
-70.0511124275
 10
311.8384674874
 20
-69.7865827309
 10
311.0414745333
 20
-69.5359377053
  0
LWPOLYLINE
  5
EB
330
1F
100
AcDbEntity
  8
0
  6
Continuous
 62
     1
370
    25
100
AcDbPolyline
 90
       47
 70
   128
 43
0.0
 10
342.0021174442
 20
-14.9201961819
 10
342.739817685
 20
-15.5174698389
 10
343.6228020638
 20
-16.3915967998
 10
344.4237699926
 20
-17.378085864
 10
345.1391455745
 20
-18.4725290529
 10
345.7657335517
 20
-19.6700378114
 10
346.3007337929
 20
-20.965266583
 10
346.7417584157
 20
-22.352428021
 10
347.0868357379
 20
-23.8253287307
 10
347.3344273994
 20
-25.3773882823
 10
347.4834257286
 20
-27.0016760932
 10
347.5331669123
 20
-28.6909369052
 10
347.4834257286
 20
-30.4376276654
 10
347.3344273994
 20
-32.2339452854
 10
347.0868357379
 20
-34.0718680847
 10
346.7417584157
 20
-35.94318659
 10
346.3007337929
 20
-37.839544219
 10
345.7657335517
 20
-39.752471121
 10
345.1391455745
 20
-41.673422959
 10
344.4237699926
 20
-43.5938212139
 10
343.6228020638
 20
-45.5050881641
 10
342.739817685
 20
-47.3986871887
 10
341.7787602206
 20
-49.2661638313
 10
340.7439246978
 20
-51.0991724148
 10
339.6399301479
 20
-52.8895315522
 10
338.4717077521
 20
-54.6292416366
 10
337.2444758172
 20
-56.3105342689
 10
335.963715409
 20
-57.925900012
 10
334.6351466452
 20
-59.4681233703
 10
333.2647023532
 20
-60.9303177683
 10
331.8585050213
 20
-62.305952545
 10
330.4228332129
 20
-63.5888829889
 10
328.9641001636
 20
-64.7733794238
 10
327.4888206896
 20
-65.8541523958
 10
326.0035836111
 20
-66.8263731563
 10
324.5150222823
 20
-67.6857013201
 10
323.0297852038
 20
-68.4282987896
 10
321.5545057298
 20
-69.0508472419
 10
320.0957726805
 20
-69.5505681362
 10
318.6601008721
 20
-69.9252290795
 10
317.2539035402
 20
-70.1731551837
 10
315.8834592482
 20
-70.2932420854
 10
314.5548904844
 20
-70.2849515712
 10
313.2741300762
 20
-70.1483203196
 10
312.0468981413
 20
-69.8839595192
 10
310.8786757455
 20
-69.4930503028
 10
310.5717847852
 20
-69.3650302785
  0
ENDSEC
  0
SECTION
  2
OBJECTS
  0
DICTIONARY
  5
C
330
0
100
AcDbDictionary
281
     1
  3
ACAD_GROUP
350
D
  3
ACAD_LAYOUT
350
1A
  3
ACAD_MLINESTYLE
350
17
  3
ACAD_PLOTSETTINGS
350
19
  3
ACAD_PLOTSTYLENAME
350
E
  3
ACAD_SCALELIST
350
47
  0
DICTIONARY
  5
D
102
{ACAD_REACTORS
330
C
102
}
330
C
100
AcDbDictionary
281
     1
  0
DICTIONARY
  5
1A
102
{ACAD_REACTORS
330
C
102
}
330
C
100
AcDbDictionary
281
     1
  3
Layout1
350
1E
  3
Layout2
350
26
  3
Model
350
22
  0
DICTIONARY
  5
17
102
{ACAD_REACTORS
330
C
102
}
330
C
100
AcDbDictionary
281
     1
  3
Standard
350
18
  0
DICTIONARY
  5
19
102
{ACAD_REACTORS
330
C
102
}
330
C
100
AcDbDictionary
281
     1
  0
ACDBDICTIONARYWDFLT
  5
E
102
{ACAD_REACTORS
330
C
102
}
330
C
100
AcDbDictionary
281
     1
  3
Normal
350
F
100
AcDbDictionaryWithDefault
340
F
  0
DICTIONARY
  5
47
102
{ACAD_REACTORS
330
C
102
}
330
C
100
AcDbDictionary
281
     1
  3
A0
350
48
  3
A1
350
49
  3
A2
350
4A
  3
A3
350
4B
  3
A4
350
4C
  3
A5
350
4D
  3
A6
350
4E
  3
A7
350
4F
  3
A8
350
50
  3
A9
350
51
  3
B0
350
52
  3
B1
350
53
  3
B2
350
54
  3
B3
350
55
  3
B4
350
56
  3
B5
350
57
  3
B6
350
58
  3
B7
350
59
  3
B8
350
5A
  3
B9
350
5B
  3
C0
350
5C
  3
C1
350
5D
  3
C2
350
5E
  3
C3
350
5F
  3
C4
350
60
  3
C5
350
61
  3
C6
350
62
  3
C7
350
63
  3
C8
350
64
  3
C9
350
65
  3
D0
350
66
  3
D1
350
67
  3
D2
350
68
  0
LAYOUT
  5
1E
102
{ACAD_REACTORS
330
1A
102
}
330
1A
100
AcDbPlotSettings
  1

  2
none_device
  4

  6

 40
0.0
 41
0.0
 42
0.0
 43
0.0
 44
0.0
 45
0.0
 46
0.0
 47
0.0
 48
0.0
 49
0.0
140
0.0
141
0.0
142
1.0
143
1.0
 70
   688
 72
     1
 73
     0
 74
     5
  7

 75
    16
147
1.0
148
0.0
149
0.0
100
AcDbLayout
  1
Layout1
 70
     1
 71
     1
 10
0.0
 20
0.0
 11
420.0
 21
297.0
 12
0.0
 22
0.0
 32
0.0
 14
1.0000000000E+20
 24
1.0000000000E+20
 34
1.0000000000E+20
 15
-1.0000000000E+20
 25
-1.0000000000E+20
 35
-1.0000000000E+20
146
0.0
 13
0.0
 23
0.0
 33
0.0
 16
1.0
 26
0.0
 36
0.0
 17
0.0
 27
1.0
 37
0.0
 76
     0
330
1B
  0
LAYOUT
  5
26
102
{ACAD_REACTORS
330
1A
102
}
330
1A
100
AcDbPlotSettings
  1

  2
none_device
  4

  6

 40
0.0
 41
0.0
 42
0.0
 43
0.0
 44
0.0
 45
0.0
 46
0.0
 47
0.0
 48
0.0
 49
0.0
140
0.0
141
0.0
142
1.0
143
1.0
 70
   688
 72
     1
 73
     0
 74
     5
  7

 75
    16
147
1.0
148
0.0
149
0.0
100
AcDbLayout
  1
Layout2
 70
     1
 71
     2
 10
0.0
 20
0.0
 11
0.0
 21
0.0
 12
0.0
 22
0.0
 32
0.0
 14
0.0
 24
0.0
 34
0.0
 15
0.0
 25
0.0
 35
0.0
146
0.0
 13
0.0
 23
0.0
 33
0.0
 16
1.0
 26
0.0
 36
0.0
 17
0.0
 27
1.0
 37
0.0
 76
     0
330
23
  0
LAYOUT
  5
22
102
{ACAD_REACTORS
330
1A
102
}
330
1A
100
AcDbPlotSettings
  1

  2
none_device
  4
Letter_(8.50_x_11.00_Inches)
  6

 40
6.35
 41
6.35
 42
6.35000508
 43
6.35000508
 44
215.9
 45
279.4
 46
0.0
 47
0.0
 48
0.0
 49
0.0
140
0.0
141
0.0
142
1.0
143
1.0
 70
  1712
 72
     1
 73
     0
 74
     0
  7

 75
     0
147
1.0
148
0.0
149
0.0
100
AcDbLayout
  1
Model
 70
     1
 71
     0
 10
0.0
 20
0.0
 11
279.4
 21
215.9
 12
0.0
 22
0.0
 32
0.0
 14
0.0
 24
0.0
 34
0.0
 15
279.4
 25
215.9
 35
0.0
146
0.0
 13
0.0
 23
0.0
 33
0.0
 16
1.0
 26
0.0
 36
0.0
 17
0.0
 27
1.0
 37
0.0
 76
     0
330
1F
331
29
  0
MLINESTYLE
  5
18
102
{ACAD_REACTORS
330
17
102
}
330
17
100
AcDbMlineStyle
  2
Standard
 70
     0
  3

 62
   256
 51
90.0
 52
90.0
 71
     2
 49
0.5
 62
   256
  6
BYLAYER
 49
-0.5
 62
   256
  6
BYLAYER
  0
ACDBPLACEHOLDER
  5
F
102
{ACAD_REACTORS
330
E
102
}
330
E
  0
SCALE
  5
48
102
{ACAD_REACTORS
330
47
102
}
330
47
100
AcDbScale
 70
     0
300
1:1
140
1.0
141
1.0
290
     1
  0
SCALE
  5
49
102
{ACAD_REACTORS
330
47
102
}
330
47
100
AcDbScale
 70
     0
300
1:2
140
1.0
141
2.0
290
     0
  0
SCALE
  5
4A
102
{ACAD_REACTORS
330
47
102
}
330
47
100
AcDbScale
 70
     0
300
1:4
140
1.0
141
4.0
290
     0
  0
SCALE
  5
4B
102
{ACAD_REACTORS
330
47
102
}
330
47
100
AcDbScale
 70
     0
300
1:5
140
1.0
141
5.0
290
     0
  0
SCALE
  5
4C
102
{ACAD_REACTORS
330
47
102
}
330
47
100
AcDbScale
 70
     0
300
1:8
140
1.0
141
8.0
290
     0
  0
SCALE
  5
4D
102
{ACAD_REACTORS
330
47
102
}
330
47
100
AcDbScale
 70
     0
300
1:10
140
1.0
141
10.0
290
     0
  0
SCALE
  5
4E
102
{ACAD_REACTORS
330
47
102
}
330
47
100
AcDbScale
 70
     0
300
1:16
140
1.0
141
16.0
290
     0
  0
SCALE
  5
4F
102
{ACAD_REACTORS
330
47
102
}
330
47
100
AcDbScale
 70
     0
300
1:20
140
1.0
141
20.0
290
     0
  0
SCALE
  5
50
102
{ACAD_REACTORS
330
47
102
}
330
47
100
AcDbScale
 70
     0
300
1:30
140
1.0
141
30.0
290
     0
  0
SCALE
  5
51
102
{ACAD_REACTORS
330
47
102
}
330
47
100
AcDbScale
 70
     0
300
1:40
140
1.0
141
40.0
290
     0
  0
SCALE
  5
52
102
{ACAD_REACTORS
330
47
102
}
330
47
100
AcDbScale
 70
     0
300
1:50
140
1.0
141
50.0
290
     0
  0
SCALE
  5
53
102
{ACAD_REACTORS
330
47
102
}
330
47
100
AcDbScale
 70
     0
300
1:100
140
1.0
141
100.0
290
     0
  0
SCALE
  5
54
102
{ACAD_REACTORS
330
47
102
}
330
47
100
AcDbScale
 70
     0
300
2:1
140
2.0
141
1.0
290
     0
  0
SCALE
  5
55
102
{ACAD_REACTORS
330
47
102
}
330
47
100
AcDbScale
 70
     0
300
4:1
140
4.0
141
1.0
290
     0
  0
SCALE
  5
56
102
{ACAD_REACTORS
330
47
102
}
330
47
100
AcDbScale
 70
     0
300
8:1
140
8.0
141
1.0
290
     0
  0
SCALE
  5
57
102
{ACAD_REACTORS
330
47
102
}
330
47
100
AcDbScale
 70
     0
300
10:1
140
10.0
141
1.0
290
     0
  0
SCALE
  5
58
102
{ACAD_REACTORS
330
47
102
}
330
47
100
AcDbScale
 70
     0
300
100:1
140
100.0
141
1.0
290
     0
  0
SCALE
  5
59
102
{ACAD_REACTORS
330
47
102
}
330
47
100
AcDbScale
 70
     0
300
1/128" = 1'-0"
140
0.0078125
141
12.0
290
     0
  0
SCALE
  5
5A
102
{ACAD_REACTORS
330
47
102
}
330
47
100
AcDbScale
 70
     0
300
1/64" = 1'-0"
140
0.015625
141
12.0
290
     0
  0
SCALE
  5
5B
102
{ACAD_REACTORS
330
47
102
}
330
47
100
AcDbScale
 70
     0
300
1/32" = 1'-0"
140
0.03125
141
12.0
290
     0
  0
SCALE
  5
5C
102
{ACAD_REACTORS
330
47
102
}
330
47
100
AcDbScale
 70
     0
300
1/16" = 1'-0"
140
0.0625
141
12.0
290
     0
  0
SCALE
  5
5D
102
{ACAD_REACTORS
330
47
102
}
330
47
100
AcDbScale
 70
     0
300
3/32" = 1'-0"
140
0.09375
141
12.0
290
     0
  0
SCALE
  5
5E
102
{ACAD_REACTORS
330
47
102
}
330
47
100
AcDbScale
 70
     0
300
1/8" = 1'-0"
140
0.125
141
12.0
290
     0
  0
SCALE
  5
5F
102
{ACAD_REACTORS
330
47
102
}
330
47
100
AcDbScale
 70
     0
300
3/16" = 1'-0"
140
0.1875
141
12.0
290
     0
  0
SCALE
  5
60
102
{ACAD_REACTORS
330
47
102
}
330
47
100
AcDbScale
 70
     0
300
1/4" = 1'-0"
140
0.25
141
12.0
290
     0
  0
SCALE
  5
61
102
{ACAD_REACTORS
330
47
102
}
330
47
100
AcDbScale
 70
     0
300
3/8" = 1'-0"
140
0.375
141
12.0
290
     0
  0
SCALE
  5
62
102
{ACAD_REACTORS
330
47
102
}
330
47
100
AcDbScale
 70
     0
300
1/2" = 1'-0"
140
0.5
141
12.0
290
     0
  0
SCALE
  5
63
102
{ACAD_REACTORS
330
47
102
}
330
47
100
AcDbScale
 70
     0
300
3/4" = 1'-0"
140
0.75
141
12.0
290
     0
  0
SCALE
  5
64
102
{ACAD_REACTORS
330
47
102
}
330
47
100
AcDbScale
 70
     0
300
1" = 1'-0"
140
1.0
141
12.0
290
     0
  0
SCALE
  5
65
102
{ACAD_REACTORS
330
47
102
}
330
47
100
AcDbScale
 70
     0
300
1-1/2" = 1'-0"
140
1.5
141
12.0
290
     0
  0
SCALE
  5
66
102
{ACAD_REACTORS
330
47
102
}
330
47
100
AcDbScale
 70
     0
300
3" = 1'-0"
140
3.0
141
12.0
290
     0
  0
SCALE
  5
67
102
{ACAD_REACTORS
330
47
102
}
330
47
100
AcDbScale
 70
     0
300
6" = 1'-0"
140
6.0
141
12.0
290
     0
  0
SCALE
  5
68
102
{ACAD_REACTORS
330
47
102
}
330
47
100
AcDbScale
 70
     0
300
1'-0" = 1'-0"
140
12.0
141
12.0
290
     0
  0
ENDSEC
  0
EOF
